Chords For Some Shocking Blue Songs (A-H)

Contributed by Kirill Yegorov


I-R S-W Various tablatures

A Waste Of Time
(from 1972 album "Attila")
Written by Robbie van Leeuwen


Intro
E|-----------------|
H|-----------------|
G|-----------------| 2x
D|-0--7---5-0------|
A|------8-----7--7-|
E|-----------------|
   Dm            A7

Dm                                A
  When people told me you could break my heart,
     Gm          A               Dm
I believed you when you said we could ever part.
                       A
That was the dream, I hope it will come true,
        Gm        A       Dm
But instead you broke my heart in two.

          Gm
It was a waste of time,
         Dm
Ain't nobody fool but mine.
          Gm
It was a waste of time,
         Dm
Ain't nobody fool but mine.
          A
It was a waste of time
        B                 Dm A7 Dm A7
When I fell in love with you.

You kept on telling me ev'rything so right,
But you cheated me while I desired a sight.
Never believe you could take that way,
But now I see I gotta find my way.

          Gm
It was a waste of time,
         Dm
Ain't nobody fool but mine.
          Gm
It was a waste of time,
         Dm
Ain't nobody fool but mine.
          A
It was a waste of time
        B                 Dm
When I fell in love with you.

Bass solo: Dm    Dm A Dm  Dm A Dm

It was a waste of time,
Ain't nobody fool but mine.
It was a waste of time,
Ain't nobody fool but mine.
It was a waste of time
When I fell in love with you.

          Gm
It was a waste of time,
         Dm
Ain't nobody fool but mine.
          Gm
It was a waste of time,
         Dm
Ain't nobody fool but mine.
          A
It was a waste of time
        B                 Dm Gm Dm Gm Dm Gm Dm
When I fell in love with you.


Alaska Country
(from 1970 album "Scorpio's Dance")
Written by Robbie van Leeuwen

Intro
E|------------------------|------------------------|
H|------------------------|------------------------|
G|------------------------|------------------------|
D|-------------2----------|-------------2----------|
A|---------0-2----1-0-----|---------0-2----1-0-----|
E|---0-0-3------------3-0-|---0-0-3------------3-0-|
  Em                       Em                        D A

E/E7#9 D  E/E7#9 D  E/E7#9 D  E/E7#9 D

 E                          Am
Don't know a better way of being alone
                     H7
Down in my land, my beautiful land.
   Em                Am
A nature of God all covered with snow,
                           H7
A pleasure to be and good times to spend.

        Em
Alaska country,
          Am
Stay the way you are.
        Em
Alaska country,
            H7
You never cheated me.
 Em         Am
Now one and only,
H7                Em D Em Em D Em
  Alaska country.

Seven days a week and seven lonely nights,
Plenty of time to find myself again.
So that I'll know what I was created for,
To have a good life where there's no pain.

        Em
Alaska country,
          Am
Stay the way you are.
        Em
Alaska country,
            H7
You never cheated me.
 Em         Am
Now one and only,
H7
  Alaska country.


Solo (x3)
E|-7-8-7-8-7-8-78-78--5-7-5-7-5-7-57-57--3-5-3-5-3-5-35-35--2-3-2-3-2-3-23-23|
   Em                 D                  C                  H7

Guitar solo (chords): Em Am Em H7 Em Am H7

Alaska country.


Riff (x2)
E|--------------------------------|
B|--------------------------------|
G|--------------------------------|
D|--------------------------------|
A|--------0--2-3----------2-0-----|
E|-0--2-3--------0-2-3-2------3-2-|


Next verse is played on this riff:

Don't know a better way of being alone
Down in my land, my beautiful land.
A nature of God all covered with snow,
A pleasure to be and good times to spend.

        Em
Alaska country,
          Am
Stay the way you are.
        Em
Alaska country,
            H7
You never cheated me.
 Em         Am
Now one and only,
H7             Em D G A  Em D Em D
  Alaska country.

Em  D   G   A   Em D Em D
Ah, ah, ah, ah.
Em       D  G        A   Em D Em D
Ah-ah-ah-ah-ah-ah-ah-ah.
Em  D   G   A   Em D Em D  Em D G A
Ah, ah, ah, ah.


E7#9 [331220]


Blossom Lady
(from 1971 single A-side)
Written by Robbie van Leeuwen

Intro: Dm C Dm Dm C Dm Gm Dm Gm Dm A

Dm
  Once I had a boy-friend,
C
 He was so tall and strong,
B
 And he knew what I needed
     A
When I was all alone.
Dm
  Then he said to me,
C
 `I'll care for you day and night,
B
 I'll never forsake you.
         A
Yes, I stay by your side.'

D
 Don't be afraid, girl,
Hm
  You're the one, the one I love.
D
 Don't be afraid, girl,
Hm
  You're the one, the one I love.
        D                           Hm
He said, `'Cause you're my blossom lady,
 Gm      C                  Dm
You're (you're) my blossom lady,
C            Dm
 My blossom lady,
C            Dm    A
 My blossom lady.'


Solo chords: D Hm A Hm Hm A Hm  D Hm A Hm Hm A Hm  D Hm


`You're (you're) my blossom lady,
My blossom lady,
My blossom lady.'

But one year later
I was as lonely as I was before.
I saw my boy-friend
At some other girl's door.
And there was that hurt again,
As so on day we broke away,
Then I remembered
What he used to say.

`Don't be afraid, girl,
You're the one, the one I love.
Don't be afraid, girl,
You're the one, the one I love.'
He said, `'Cause you're my blossom lady,
You're (you're) my blossom lady,
My blossom lady,
My blossom lady.'


Outro: Dm C Dm Dm C Dm Dm C Dm


Broken Heart
(from 1972 album "Attila")
Written by Robbie van Leeuwen

Intro: D D G Am Am G D D G Am (x2)

E7
  There will be a day
That you go away
                Am
And I have to stay
                  D    G Am
With the broken heart,
           G      D    G Am
With the broken heart.

G          Am  F#        Hm
 I nearly told it up to you,
G       Am       F#              Hm
 You decide what    you're gonna do.
G      A
 I see in your eyes
  Am                 F7 E7
That we are through.

There will be a day
That you go away
And I have to stay
With the broken heart,
With the broken heart.


Solo
E|-----------------------------------------------------------------|
B|-3-2-3-2-3-2-3-2-3-2-3-2-3-2-3---1-------------------------------|
G|-------------------------------2---3-0------0-2---3p2-3p2--0---0-|
D|------------------------------------------0------------------3---|
A|-----------------------------------------------------------------|
E|-----------------------------------------------------------------|
   D                                   Gm B     A D              Gm

E|-----------------------------------------------|
B|-----------------------------------------------|
G|----0-2---3p2-3p2--0---0------0-2---3p2-3p2--0-|
D|--0------------------3------0------------------|
A|-----------------------------------------------|
E|-----------------------------------------------|
  B      A D              Gm B      A D
(play these patterns twice)


E7
  Now I hear this old song,
I can't go on.
                Am
Why are you so hard?
             D      G Am
I want your lovin'.
         G     D  G Am
Don't let me stay
           G      D    G Am
With the broken heart,
With the broken heart,
With the broken heart,
With the broken heart.


California Here I Come
(taken from 1969 album "At Home")
Written by Robbie van Leeuwen

Intro
E|----------------------------------------------------------------|
H|----------------------------------------------------------------|
G|----------------------------------------------------------------|
D|----------------------------------------------------------------|
A|-------------2--2----------2--2--------3-2--2----------2--2-----|
E|-7\0---0-0-3------3-0--0-3------3-0--0--------3-0--0-3------3-0-|
         Em    Hm     Em     Hm     Em     Hm     Em     Hm     Em

       Em    Hm         Em Hm
Got a long, long way to go
Em        Hm    Em    Hm
Over her dusty roads.
        Em         Hm           Em Hm
Take my old brown suitcase with me
     C                     Em   Hm Em Hm
And leave at the break of dawn.

     Em    Hm          Em       Hm
I'm not afraid of the distance,
 Em       Hm     Em   Hm
Some time on my side.
 Em      Hm         Em   Hm
Hear me singing my song,
 C                 Em
California here I come.

Bass riff 1
E|-----------------|
H|-----------------|
G|---------0-------|
D|-2---0-2---2-0-2-|
A|---2-------------|
E|-----------------|

E D
Bass riff 1


When the sun's going down,
Silence is the only sound.
All restless are the nights
When nobody's around.

I'm not afraid of the distance,
Some time on my side.
Hear me singing my song,
California here I come.


Bass riff 1
E D
Bass riff 1


Riff 2 (x2)
E|-----------------|
H|-----------------|
G|-----------------|
D|-3-3-3-3-3-2-0---|
A|---------------2-|
E|-----------------|

Riff 3 (x2)
E|-----------------|
H|-----------------|
G|-----------------|
D|-----------------|
A|-5-5-5-5-5-2-0---|
E|---------------3-|

Em
G A  G Em   G A  G Em  G Em G Em G Em G Em G Em G Em

Bass riff 4
E|---------------------------------------------------|
H|---------------------------------------------------|
G|-----0-------------0-------------0--------------0--|
D|-2-2--------0-2--2--------0-2--2---------0-2--2----|
A|-------2--2----------2--2----------2---2---------2-|
E|---------------------------------------------------|


Day after day I'm going
Over her dusty roads.
How long will this go on?
Until I'm there where I belong.

But now troubles are over,
I wipe off the dust off my boots.
Hear me singing my song,
California now to come,
Now to come.

But now troubles are over,
I wipe off the dust off my boots.
Hear me singing my song,
California now to come,
Now to come,
Now to come.


Demon Lover
(from 1970 album "Scorpio's Dance")
Written by Robbie van Leeuwen


Intro: Em

Riff (x2)
E|-----------------------------|
H|-----------------------------|
G|--------0--------------------|
D|-1s2--2---4-0------0-4-2-0-2-|
A|--------------2--2-----------|
E|-----------------------------|
     Em         Hm           Em Hm

Em                  Hm        Em         Hm
  It hurts me so to be under your spell,
Em                    Hm        Em   Hm
  Ain't no heaven for me but a hell.
Am          F                    C
  But after all I can't let you go,
       G           H    Em          A
'Cause I love you so, daemon lover.
        D     G
Daemon lover,
        C     F
Daemon lover,
        Em  Hm Em Hm Em Hm Em Hm
I love you.

I'm bewitched and I know it so well.
What the reason is baby, I can't tell.
It's that animal good looks you've got,
You show more than a lot, daemon lover.
Daemon lover,
Daemon lover,
I love you.

You've sewed me for loving kindness sake,
You don't give love, you only take.
But after all I can't let you go,
'Cause I love you so, daemon lover.
Daemon lover,
Daemon lover,
I love you.


Solo chords (after bass riff): Em Hm Em Hm Em Hm Em Hm Bm Am


It's that animal good looks you've got,
You show more than a lot, daemon lover.
Daemon lover,
Daemon lover,
I love you.

It hurts me so to be under your spell,
Ain't no heaven for me but a hell.
But after all I can't let you go,
'Cause I love you so, daemon lover.
Daemon lover,
Daemon lover,
I love you.


Diana In Her Dreams
(from 1973 album "Dream On Dreamer")
Written by Robbie van Leeuwen

Intro: G A G A G A G A

E|-------------------------------------------------------|
H|-------------------------------------------------------|
G|------------------------2-2-4-2------------------------|
D|-4h5-5-5-4-2-4-2--2^4-5---------4-5-5-4-2--5^4-2-0-2-2-|
A|-------------------------------------------------------|
E|-------------------------------------------------------|

h means hammer; ^ means legato


G      A              G             A      G
 Ev'ry night when the clock strikes twelve
A            G      A
A voice of devotion
G      A       G     A     G
 Fills Diana so completely
A             G       A
With strange emotion.

D      C
 Diana in her dreams,
 G                          A
Bend a silver bow upon the medal's low.
D      C
 Diana in her dreams
      G     A      D
And then a silver bow.

 D              Hm
Na-na-na-na-na, na-na-na-na-na,
E  F# Hm E  F#
Ah-ah-ah-ah-ah.

What is your rights a mean-black horse
In that defence of this fang.
Till the morning breaks she is
Surrounded by a horse attend.

Diana in her dreams
Bend a silver bow upon the medal's low.
Diana in her dreams
And then a silver bow.

Na-na-na-na-na, na-na-na-na-na,
Ah-ah, na, na, na.

Solo: G A (x16)  G D A G D A G D A  G D A

Ev'ry night when the clock strikes twelve
A voice of devotion
Fills Diana so completely
With strange emotion.

Diana in her dreams,
Bend a silver bow upon the medal's low.
Diana in her dreams
And then a silver bow.

Na-na-na-na-na, na-na-na-na-na,
Ah-ah, na, na, na.


Eve And The Apple
(from 1970 single A-side)
Written by Robbie van Leeuwen

Intro (x4)
E|-----------------|
H|-----------------|
G|-----------------|
D|-2-2-0---2-2-5-4-|
A|-------2---------|
E|-----------------|

Em
In the garden of Eden
The black snake talked to Eve.
He said, `Taste a big apple,
It won't give you any grief.'
            H
She said, `No, it ain't mine.'
        A                          H
`But a taste must be sweeter than wine.'

          Em      D          C       H   Em   D C H
Well she took the apple and we lost paradise.
          Em      D          C       H   Em
Well she took the apple and we lost paradise.

E|-7----10-9---10---12--9-----9-7-6--9-7-6--9-7-6--9-7-6--7-|
   Em                                                     Fm

    Fm
Mm, ev'ry boy and girl
Ask their mom or dad
About a place here on earth
Where little Eve once said,
  C
`No, it ain't mine.'
        B                          C
`But a taste must be sweeter than wine.'

          Fm      D#        C#       C   Fm   D# C# C
Well she took the apple and we lost paradise.
          Fm      D#        C#       C   Fm
Well she took the apple and we lost paradise.

         Fm       D#           C#       C
And the sun went down in that world of light.
         Fm       D#           C#       C
And the sun went down in that world of light.
         Fm       D#           C#       C
And the sun went down in that world of light!

F#m
In the garden of Eden
The black snake talked to Eve.
He said, `Taste a big apple,
It won't give you any grief.'
           C#
She said, `No, it ain't mine.'
        H                          C#
`But a taste must be sweeter than wine.'

          F#m     E          D       C# F#m   E D C#
Well she took the apple and we lost paradise.
          F#m     E          D       C# F#m
Well she took the apple and we lost paradise.

E|-9----12-11---12---14--11-----11-9-8--11-9-8--11-9-8--11-9-8---9-10-11--10-11-12--15-16-17-|
  F#m


Fireball Of Love
(from 1969 album "At Home")
Written by Robbie van Leeuwen

Intro: Dmaj7 E/D A6-5 (x4)  A F#m A F#m


E|-----5-0-5-0---------------5---5---5-5---|
H|-------------2-3-2-0---------7---7-----7-|
G|---2-----------------2-1-----------------|
D|-2-----------------------4---------------|
A|-----------------------------------------|
E|-----------------------------------------|
   A                      F#m

E|-----5-0-5-0---------------5---5---5-|
H|-------------2-3-2-0---------7---7---|
G|---2-----------------2-1-------------|
D|-2-----------------------4-----------|
A|-------------------------------------|
E|-------------------------------------|
   A                      F#m

A                          F#m
 You made a bird forget to fly,
A                           F#m
 You made a woman forget to try.
D                            E
 That's the secret of your heart,
A               D           A
 You're like a fireball of love.

F#m
Fireball, fireball, fireball of love,
H                    F#m
 You made my life in paradise,
H                          F#m
 You made that eye 'cause [...] they're nice.
F#m                    E
   You made a tear forget to fall,
D                     C#7          Dmaj7  A F#m A F#m
 You made a forest forget to call.

You made my eyes afraid to see,
You made me afraid to be.
That's the secret of your heart,
You're like a fireball of love.

F#m
Fireball, fireball, fireball of love,
H                   F#m
 You made an owl forget to turn,
H                    F#m
 You made a flame forget to burn.
F#m                    E
   You made a tear forget to fall,
D                     C#7          F#m F#m E  D D C#7
 You made a forest forget to call.


H A H A H A H A  Dmaj7  A F#m A F#m


You made a bird forget to fly,
You made a woman forget to try.
That's the secret of your heart,
You're like a fireball of love.

F#m
Fireball, fireball, fireball of love.
Fireball, fireball, fireball of love.
Fireball, fireball, fireball of love.


*/Chords/*
Dmaj7  576xxx
E/D    454xxx
A6-5   222xxx


Get It On
(from 1975 single B-side)
Written by Martin van Wijk

Intro: E

 E                        D
No point on turning back,
E                         D
 If you're on the wrong track
E           D E                    D
 Try to fly,   do it in your mind.
Am
  You got problems and I've got sorrow.
C                H           E
 We gotta wait on till tomorrow.

There's no way of turn it now,
If you wanna free around
Try to make it, do it in your mind.
You got problems and I've got sorrow.
We gotta wait on till tomorrow.

  C              Em
Fly away, don't hide away,
       C                   Em
Don't put yourself on the run,
 C                    Em
Turn your head, see what's ahead.
 C                                         Em
Come on, come on, come on, come on, get it on!
 C                                         Em
Come on, come on, come on, come on, get it on!


Solo: Em (C Am C Am) Em (C Am C Am) Em

E|-----0------0------------0--------------0-|
H|-----0------1------------1--------------0-|
G|-----0------2------------2--------------0-|
D|-----2------0------------0--------------2-|
A|-2-0-2--0-2-3-2-0--------3-2-0------2-0-2-|
E|-----0------------3-2-0--------3-2------0-|
       Em     C   Am       C   Am         Em
(play this pattern twice, then end on Em as  D|-2-0-2-|  twice)

E|----------------5--7--------10-8-7----7--7p8------7p8------8--8^7h8-----|
H|-----------5555------10-8----------10--------10-8-----10-8----------8---|
G|------5555----------------9-------------------------------------------7-|
D|-7777-------------------------------------------------------------------|
A|------------------------------------------------------------------------|
E|------------------------------------------------------------------------|
   Am                Em                    C                    G

E|-10-7----5-7-8--2-3-5--10----------|
H|------7---------3-5-7--10-8--7-8-9-|
G|--------------------------7--7-8-9-|
D|-----------------------------------|
A|-----------------------------------|
E|-----------------------------------|
   G       Am     D         G


 Am
Tell me if I'm wrong,
        Em
I was starting all again, my dear,
C                                 G
 Think you all my future and my past
I ask and see my momma cry,
Am
  I could never tell her lie,
D                                G
 Saying that it's all the same to me,
 Am                     H7
Saying it's all the same to me.

No point on turning back,
If you're on the wrong track
Try to fly, do it in your mind.
You got problems and I've got sorrow.
We gotta wait on till tomorrow.

Fly away, don't hide away,
Don't put yourself on the run,
Turn your head, see what's ahead.
Come on, come on, come on, come on, get it on!
Come on, come on, come on, come on, get it on!
                                               C Em
Come on, come on, come on, come on, get it on!


Gonna Sing Me A Song
(from 1975 single A-side)
Written by Martin van Wijk

Intro: Em (VII)

E|-14^15-14-12-14-12-10--------5^6-------9-10--15-14-12-|
H|----------------------8-10-------8-6-8----------------|
G|----------------------9-10----------------------------|
D|------------------------------------------------------|
A|------------------------------------------------------|
E|------------------------------------------------------|
   Em                D    G    C           H         Em

Em               D        G
  Gonna sing my song for you,
    C          H       Em
It won't ever let you down.
Em                D       G
  Gonna bring my love to you
    C          H     Em
By singing my song around, love,
       C          H     Em
It's spinning my head around.

What a sake of me and you
And something that we found?
Only I need love we'll do.
I sing it all around, love,
It's turning my head around.

I [...] single morning tells me
I will never ever let you go.
I want you to know!
I will never ever leave you,
Never say a word to bring you down.
That's what I feel with a sure!
Come on, I'm taking it!

Gonna sing my song for you,
It won't ever let you down.
Gonna bring my love to you
By singing my song around, love,
It's spinning my head around.


Good Times
(from 1974 album "Good Times")
Written by Vanda-Young

Intro: D A E (x4)

                               D A E
Baby, baby, you're on my mind.
                                              D A E
My folks are gone and the place will be mine.
                                D A E
Baby, babe, I wanna be with you
      E
And this is what I'm gonna do,
 H
Wanna put a call to you now.

 E            D
Gonna have a good time tonight,
 A                        H
Rock'n'roll music gonna play all night.
E                   D
 Come on, baby, it won't take long,
A                           H
Only take a minute just to sing my song.

Bonnie Moronie is gonna be with Jim,
Yeah, Long Tall Sally's gonna be with slim.
I bet Short Fat Fannies gonna be there too,
And this is what I'm gonna do,
Wanna put a call to you now.

Gonna have a good time tonight,
Rock'n'roll music gonna play all night.
Come on, baby, it won't take long,
Only take a minute just to sing my song.


Solo chords: E   D A E  D A E  D A E   H


Bonnie Moronie is gonna be with Jim,
Yeah, Long Tall Sally's gonna be with slim.
I bet Short Fat Fannies gonna be there too,
And this is what I'm gonna do,
I wanna put a call to you now.

Gonna have a good time tonight,
Rock'n'roll music gonna play all night.
Come on, baby, it won't take long,
Only take a minute just to sing my song.

       E      D
Gonna have a good time tonight,
 A                        H
Rock'n'roll music gonna play all night.
E                   D
 Come on, baby, it won't take long,
A                           H            E G# A B H
Only take a minute just to sing my song.

Gonna have a good time tonight,
Rock'n'roll music gonna play all night.
Come on, baby, it won't take long,
Only take a minute just to sing my song.

Gonna have a good time tonight,
Rock'n'roll music gonna play all night.
Come on, baby, it won't take long,
Only take a minute just to sing my song.

Gonna have a good time tonight,
Rock'n'roll music gonna play all night.
Come on, baby...


Hello Darkness
(from 1970 single A-side)
Written by Robbie van Leeuwen

Intro (x4)
E|---------|
H|-----1---|
G|-------3-|
D|---2-----|
A|-3-------|
E|---------|
   C7

Intro: C7   B Dm C  B Dm C  F C G C B C B C B C

    B                 F               C      Dm C
Between the grey and red shadows of twilight
Dm     F        Dm       F    Dm C Dm C
  The time is standing still.
Dm    F            Dm         F                 Dm  C             Dm  C
  It seems like a hundred of light years since the day you went away.
F B  F  B  F C F C
  Ah-ah-ah-ah-ah-ah.

Dm C    Dm C    Dm F        Dm F
  Hello,  hello   darkness,
Dm  F
  Step inside,
Dm G              Dm    C             Dm C
  Make the hours run thru' the night.
Dm C    Dm C    Dm F        Dm F
  Hello,  hello   darkness,
Dm  F
  Step inside,
Dm G              Dm    C             Dm C
  Make the hours run thru' the night.

Knowing that you're far from my heart
It's so hard to live on.
But on the day that you'll return
I know you'll make my fire burn,
When this night is over you'll be mine.

Hello, hello darkness,
Step inside,
Make the hours run thru' the night.
Hello, hello darkness,
Step inside,
Make the hours run thru' the night.


Solo chords: B Dm C  B Dm C  F C G C B C B C B C


Hello, hello darkness,
Step inside,
Make the hours run thru' the night.
Hello, hello darkness,
Step inside,
Make the hours run thru' the night.


Hot Sand
(from 1969 single B-side)
Written by Robbie van Leeuwen

 Am           C
Summer day is over
     Am                 C            Am C Am C
And darkness come with mighty wings.
     Am                 C
The sea-gull's head is tired
      Am              C            Am C Am C
And when he's tired then he sings.

 Am       G F
Hot sand,
                    Am       G F
I'm walking in the hot sand,
                    Am      G F
Making love on the hot sand
               C   G
Together with you.

 Am          Dm
Yeah, yeah, yeah,
 Dm          Am   Am Dm Dm Am
Yeah, yeah, yeah.

I'm waiting for the hour,
I'm looking for the place to stay,
Some place where I can rest
And not think about the empty day.

Hot sand,
I'm walking in the hot sand,
Making love on the hot sand
Together with you.


Bass riff (x3)
E|----------------------------|
H|----------------------------|
G|----------------------------|
D|----------------------------|
A|-------------3------------3-|
E|-5-5--0-5--3----1---0-1-3---|

Hot sand,
I'm walking in the hot sand,
Making love on the hot sand
               Em
Together with you.


Sitar solo
E|-----------------------------------------------------------|
H|-1-0-1--0----------------1----1-0-1-0---0------------------|
G|----------2----2-4-2-0-2--------------2---2-----2--2-0---0-|
D|-------------------------------------------------------3---|
A|-----------------------------------------------------------|
E|-----------------------------------------------------------|

Em


I'm waiting for the hour,
I'm looking for the place to stay,
Some place where I can rest
And not think about the empty day.

If you wonder why babe,
If you wonder what you hear,
It's useless to describe babe,
Don't wonder of what's in your ear.

Hot sand,
Feel so good on the hot sand,
I'm strolling in the hot sand
Together with you.

Yeah, yeah, yeah,
Yeah, yeah, yeah.
Yeah, yeah, yeah,
Yeah, yeah, yeah.
Yeah, yeah, yeah,
Yeah, yeah, yeah.

I-R S-W Various tablatures

1